ISO-10303-21;
HEADER;
/* Generated by software containing ST-Developer
 * from STEP Tools, Inc. (www.steptools.com) 
 */
/* OPTION: using custom schema-name function */

FILE_DESCRIPTION(
/* description */ (''),
/* implementation_level */ '2;1');

FILE_NAME(
/* name */ 'EX-FD47.stp',
/* time_stamp */ '2023-04-10T10:16:46+08:00',
/* author */ (''),
/* organization */ (''),
/* preprocessor_version */ 'ST-DEVELOPER v16.7',
/* originating_system */ 'SIEMENS PLM Software NX 12.0',
/* authorisation */ '');

FILE_SCHEMA (('AUTOMOTIVE_DESIGN { 1 0 10303 214 3 1 1 1 }'));
ENDSEC;

DATA;
#10=SHAPE_REPRESENTATION_RELATIONSHIP('None',
'relationship between EX-FD47-None and EX-FD47-None',#22,#11);
#11=ADVANCED_BREP_SHAPE_REPRESENTATION('EX-FD47-None',(#32),#415);
#12=SHAPE_DEFINITION_REPRESENTATION(#13,#22);
#13=PRODUCT_DEFINITION_SHAPE('','',#14);
#14=PRODUCT_DEFINITION(' ','',#16,#15);
#15=PRODUCT_DEFINITION_CONTEXT('part definition',#21,'design');
#16=PRODUCT_DEFINITION_FORMATION_WITH_SPECIFIED_SOURCE(' ',' ',#18,
 .NOT_KNOWN.);
#17=PRODUCT_RELATED_PRODUCT_CATEGORY('part','',(#18));
#18=PRODUCT('EX-FD47','EX-FD47',' ',(#19));
#19=PRODUCT_CONTEXT(' ',#21,'mechanical');
#20=APPLICATION_PROTOCOL_DEFINITION('international standard',
'automotive_design',2010,#21);
#21=APPLICATION_CONTEXT(
'core data for automotive mechanical design processes');
#22=SHAPE_REPRESENTATION('EX-FD47-None',(#254),#415);
#23=PRESENTATION_LAYER_ASSIGNMENT('1','Layer 1',(#32));
#24=STYLED_ITEM('',(#25),#32);
#25=PRESENTATION_STYLE_ASSIGNMENT((#26));
#26=SURFACE_STYLE_USAGE(.BOTH.,#27);
#27=SURFACE_SIDE_STYLE('',(#28));
#28=SURFACE_STYLE_FILL_AREA(#29);
#29=FILL_AREA_STYLE('',(#30));
#30=FILL_AREA_STYLE_COLOUR('',#31);
#31=COLOUR_RGB('Orange',1.,0.6,0.);
#32=MANIFOLD_SOLID_BREP('',#33);
#33=CLOSED_SHELL('',(#46,#47,#48,#49,#50,#51,#52,#53,#54,#55,#56,#57,#58,
#59,#60,#61));
#34=CYLINDRICAL_SURFACE('',#269,1.05);
#35=CYLINDRICAL_SURFACE('',#270,1.05);
#36=CYLINDRICAL_SURFACE('',#272,0.25);
#37=CYLINDRICAL_SURFACE('',#275,0.25);
#38=CYLINDRICAL_SURFACE('',#278,0.5);
#39=CYLINDRICAL_SURFACE('',#281,0.5);
#40=FACE_OUTER_BOUND('',#123,.T.);
#41=FACE_OUTER_BOUND('',#124,.T.);
#42=FACE_OUTER_BOUND('',#140,.T.);
#43=FACE_OUTER_BOUND('',#143,.T.);
#44=FACE_OUTER_BOUND('',#146,.T.);
#45=FACE_OUTER_BOUND('',#149,.T.);
#46=ADVANCED_FACE('',(#96,#97,#98),#62,.T.);
#47=ADVANCED_FACE('',(#40),#63,.T.);
#48=ADVANCED_FACE('',(#41),#64,.T.);
#49=ADVANCED_FACE('',(#99,#100,#101),#65,.T.);
#50=ADVANCED_FACE('',(#102,#103,#104),#66,.F.);
#51=ADVANCED_FACE('',(#105,#106,#107),#67,.T.);
#52=ADVANCED_FACE('',(#108,#109),#34,.F.);
#53=ADVANCED_FACE('',(#110,#111),#35,.F.);
#54=ADVANCED_FACE('',(#112,#113),#36,.F.);
#55=ADVANCED_FACE('',(#42),#68,.T.);
#56=ADVANCED_FACE('',(#114,#115),#37,.F.);
#57=ADVANCED_FACE('',(#43),#69,.T.);
#58=ADVANCED_FACE('',(#116,#117),#38,.T.);
#59=ADVANCED_FACE('',(#44),#70,.F.);
#60=ADVANCED_FACE('',(#118,#119),#39,.T.);
#61=ADVANCED_FACE('',(#45),#71,.F.);
#62=PLANE('',#257);
#63=PLANE('',#258);
#64=PLANE('',#259);
#65=PLANE('',#262);
#66=PLANE('',#265);
#67=PLANE('',#268);
#68=PLANE('',#273);
#69=PLANE('',#276);
#70=PLANE('',#279);
#71=PLANE('',#282);
#72=LINE('',#358,#84);
#73=LINE('',#361,#85);
#74=LINE('',#363,#86);
#75=LINE('',#365,#87);
#76=LINE('',#367,#88);
#77=LINE('',#369,#89);
#78=LINE('',#371,#90);
#79=LINE('',#373,#91);
#80=LINE('',#375,#92);
#81=LINE('',#377,#93);
#82=LINE('',#383,#94);
#83=LINE('',#384,#95);
#84=VECTOR('',#289,1.);
#85=VECTOR('',#290,1.);
#86=VECTOR('',#291,1.);
#87=VECTOR('',#292,1.);
#88=VECTOR('',#295,1.);
#89=VECTOR('',#296,1.);
#90=VECTOR('',#297,1.);
#91=VECTOR('',#300,1.);
#92=VECTOR('',#301,1.);
#93=VECTOR('',#302,1.);
#94=VECTOR('',#309,1.);
#95=VECTOR('',#310,1.);
#96=FACE_BOUND('',#120,.T.);
#97=FACE_BOUND('',#121,.T.);
#98=FACE_BOUND('',#122,.T.);
#99=FACE_BOUND('',#125,.T.);
#100=FACE_BOUND('',#126,.T.);
#101=FACE_BOUND('',#127,.T.);
#102=FACE_BOUND('',#128,.T.);
#103=FACE_BOUND('',#129,.T.);
#104=FACE_BOUND('',#130,.T.);
#105=FACE_BOUND('',#131,.T.);
#106=FACE_BOUND('',#132,.T.);
#107=FACE_BOUND('',#133,.T.);
#108=FACE_BOUND('',#134,.T.);
#109=FACE_BOUND('',#135,.T.);
#110=FACE_BOUND('',#136,.T.);
#111=FACE_BOUND('',#137,.T.);
#112=FACE_BOUND('',#138,.T.);
#113=FACE_BOUND('',#139,.T.);
#114=FACE_BOUND('',#141,.T.);
#115=FACE_BOUND('',#142,.T.);
#116=FACE_BOUND('',#144,.T.);
#117=FACE_BOUND('',#145,.T.);
#118=FACE_BOUND('',#147,.T.);
#119=FACE_BOUND('',#148,.T.);
#120=EDGE_LOOP('',(#150));
#121=EDGE_LOOP('',(#151));
#122=EDGE_LOOP('',(#152,#153,#154,#155));
#123=EDGE_LOOP('',(#156,#157,#158,#159));
#124=EDGE_LOOP('',(#160,#161,#162,#163));
#125=EDGE_LOOP('',(#164));
#126=EDGE_LOOP('',(#165));
#127=EDGE_LOOP('',(#166,#167,#168,#169));
#128=EDGE_LOOP('',(#170));
#129=EDGE_LOOP('',(#171));
#130=EDGE_LOOP('',(#172,#173,#174,#175));
#131=EDGE_LOOP('',(#176));
#132=EDGE_LOOP('',(#177));
#133=EDGE_LOOP('',(#178,#179,#180,#181));
#134=EDGE_LOOP('',(#182));
#135=EDGE_LOOP('',(#183));
#136=EDGE_LOOP('',(#184));
#137=EDGE_LOOP('',(#185));
#138=EDGE_LOOP('',(#186));
#139=EDGE_LOOP('',(#187));
#140=EDGE_LOOP('',(#188));
#141=EDGE_LOOP('',(#189));
#142=EDGE_LOOP('',(#190));
#143=EDGE_LOOP('',(#191));
#144=EDGE_LOOP('',(#192));
#145=EDGE_LOOP('',(#193));
#146=EDGE_LOOP('',(#194));
#147=EDGE_LOOP('',(#195));
#148=EDGE_LOOP('',(#196));
#149=EDGE_LOOP('',(#197));
#150=ORIENTED_EDGE('',*,*,#218,.F.);
#151=ORIENTED_EDGE('',*,*,#219,.F.);
#152=ORIENTED_EDGE('',*,*,#220,.F.);
#153=ORIENTED_EDGE('',*,*,#221,.F.);
#154=ORIENTED_EDGE('',*,*,#222,.T.);
#155=ORIENTED_EDGE('',*,*,#223,.T.);
#156=ORIENTED_EDGE('',*,*,#224,.F.);
#157=ORIENTED_EDGE('',*,*,#223,.F.);
#158=ORIENTED_EDGE('',*,*,#225,.T.);
#159=ORIENTED_EDGE('',*,*,#226,.T.);
#160=ORIENTED_EDGE('',*,*,#227,.F.);
#161=ORIENTED_EDGE('',*,*,#226,.F.);
#162=ORIENTED_EDGE('',*,*,#228,.T.);
#163=ORIENTED_EDGE('',*,*,#229,.T.);
#164=ORIENTED_EDGE('',*,*,#230,.T.);
#165=ORIENTED_EDGE('',*,*,#231,.T.);
#166=ORIENTED_EDGE('',*,*,#232,.F.);
#167=ORIENTED_EDGE('',*,*,#229,.F.);
#168=ORIENTED_EDGE('',*,*,#233,.T.);
#169=ORIENTED_EDGE('',*,*,#221,.T.);
#170=ORIENTED_EDGE('',*,*,#234,.F.);
#171=ORIENTED_EDGE('',*,*,#235,.F.);
#172=ORIENTED_EDGE('',*,*,#222,.F.);
#173=ORIENTED_EDGE('',*,*,#233,.F.);
#174=ORIENTED_EDGE('',*,*,#228,.F.);
#175=ORIENTED_EDGE('',*,*,#225,.F.);
#176=ORIENTED_EDGE('',*,*,#236,.T.);
#177=ORIENTED_EDGE('',*,*,#237,.T.);
#178=ORIENTED_EDGE('',*,*,#220,.T.);
#179=ORIENTED_EDGE('',*,*,#224,.T.);
#180=ORIENTED_EDGE('',*,*,#227,.T.);
#181=ORIENTED_EDGE('',*,*,#232,.T.);
#182=ORIENTED_EDGE('',*,*,#235,.T.);
#183=ORIENTED_EDGE('',*,*,#237,.F.);
#184=ORIENTED_EDGE('',*,*,#234,.T.);
#185=ORIENTED_EDGE('',*,*,#236,.F.);
#186=ORIENTED_EDGE('',*,*,#238,.T.);
#187=ORIENTED_EDGE('',*,*,#219,.T.);
#188=ORIENTED_EDGE('',*,*,#238,.F.);
#189=ORIENTED_EDGE('',*,*,#239,.T.);
#190=ORIENTED_EDGE('',*,*,#218,.T.);
#191=ORIENTED_EDGE('',*,*,#239,.F.);
#192=ORIENTED_EDGE('',*,*,#240,.T.);
#193=ORIENTED_EDGE('',*,*,#231,.F.);
#194=ORIENTED_EDGE('',*,*,#240,.F.);
#195=ORIENTED_EDGE('',*,*,#241,.T.);
#196=ORIENTED_EDGE('',*,*,#230,.F.);
#197=ORIENTED_EDGE('',*,*,#241,.F.);
#198=VERTEX_POINT('',#355);
#199=VERTEX_POINT('',#357);
#200=VERTEX_POINT('',#359);
#201=VERTEX_POINT('',#360);
#202=VERTEX_POINT('',#362);
#203=VERTEX_POINT('',#364);
#204=VERTEX_POINT('',#368);
#205=VERTEX_POINT('',#370);
#206=VERTEX_POINT('',#374);
#207=VERTEX_POINT('',#376);
#208=VERTEX_POINT('',#380);
#209=VERTEX_POINT('',#382);
#210=VERTEX_POINT('',#387);
#211=VERTEX_POINT('',#389);
#212=VERTEX_POINT('',#392);
#213=VERTEX_POINT('',#394);
#214=VERTEX_POINT('',#399);
#215=VERTEX_POINT('',#403);
#216=VERTEX_POINT('',#407);
#217=VERTEX_POINT('',#411);
#218=EDGE_CURVE('',#198,#198,#242,.T.);
#219=EDGE_CURVE('',#199,#199,#243,.T.);
#220=EDGE_CURVE('',#200,#201,#72,.T.);
#221=EDGE_CURVE('',#202,#200,#73,.T.);
#222=EDGE_CURVE('',#202,#203,#74,.T.);
#223=EDGE_CURVE('',#203,#201,#75,.T.);
#224=EDGE_CURVE('',#201,#204,#76,.T.);
#225=EDGE_CURVE('',#203,#205,#77,.T.);
#226=EDGE_CURVE('',#205,#204,#78,.T.);
#227=EDGE_CURVE('',#204,#206,#79,.T.);
#228=EDGE_CURVE('',#205,#207,#80,.T.);
#229=EDGE_CURVE('',#207,#206,#81,.T.);
#230=EDGE_CURVE('',#208,#208,#244,.T.);
#231=EDGE_CURVE('',#209,#209,#245,.T.);
#232=EDGE_CURVE('',#206,#200,#82,.T.);
#233=EDGE_CURVE('',#207,#202,#83,.T.);
#234=EDGE_CURVE('',#210,#210,#246,.T.);
#235=EDGE_CURVE('',#211,#211,#247,.T.);
#236=EDGE_CURVE('',#212,#212,#248,.T.);
#237=EDGE_CURVE('',#213,#213,#249,.T.);
#238=EDGE_CURVE('',#214,#214,#250,.T.);
#239=EDGE_CURVE('',#215,#215,#251,.T.);
#240=EDGE_CURVE('',#216,#216,#252,.T.);
#241=EDGE_CURVE('',#217,#217,#253,.T.);
#242=CIRCLE('',#255,0.25);
#243=CIRCLE('',#256,0.25);
#244=CIRCLE('',#260,0.5);
#245=CIRCLE('',#261,0.5);
#246=CIRCLE('',#263,1.05);
#247=CIRCLE('',#264,1.05);
#248=CIRCLE('',#266,1.05);
#249=CIRCLE('',#267,1.05);
#250=CIRCLE('',#271,0.25);
#251=CIRCLE('',#274,0.25);
#252=CIRCLE('',#277,0.5);
#253=CIRCLE('',#280,0.5);
#254=AXIS2_PLACEMENT_3D('',#353,#283,#284);
#255=AXIS2_PLACEMENT_3D('',#354,#285,#286);
#256=AXIS2_PLACEMENT_3D('',#356,#287,#288);
#257=AXIS2_PLACEMENT_3D('',#366,#293,#294);
#258=AXIS2_PLACEMENT_3D('',#372,#298,#299);
#259=AXIS2_PLACEMENT_3D('',#378,#303,#304);
#260=AXIS2_PLACEMENT_3D('',#379,#305,#306);
#261=AXIS2_PLACEMENT_3D('',#381,#307,#308);
#262=AXIS2_PLACEMENT_3D('',#385,#311,#312);
#263=AXIS2_PLACEMENT_3D('',#386,#313,#314);
#264=AXIS2_PLACEMENT_3D('',#388,#315,#316);
#265=AXIS2_PLACEMENT_3D('',#390,#317,#318);
#266=AXIS2_PLACEMENT_3D('',#391,#319,#320);
#267=AXIS2_PLACEMENT_3D('',#393,#321,#322);
#268=AXIS2_PLACEMENT_3D('',#395,#323,#324);
#269=AXIS2_PLACEMENT_3D('',#396,#325,#326);
#270=AXIS2_PLACEMENT_3D('',#397,#327,#328);
#271=AXIS2_PLACEMENT_3D('',#398,#329,#330);
#272=AXIS2_PLACEMENT_3D('',#400,#331,#332);
#273=AXIS2_PLACEMENT_3D('',#401,#333,#334);
#274=AXIS2_PLACEMENT_3D('',#402,#335,#336);
#275=AXIS2_PLACEMENT_3D('',#404,#337,#338);
#276=AXIS2_PLACEMENT_3D('',#405,#339,#340);
#277=AXIS2_PLACEMENT_3D('',#406,#341,#342);
#278=AXIS2_PLACEMENT_3D('',#408,#343,#344);
#279=AXIS2_PLACEMENT_3D('',#409,#345,#346);
#280=AXIS2_PLACEMENT_3D('',#410,#347,#348);
#281=AXIS2_PLACEMENT_3D('',#412,#349,#350);
#282=AXIS2_PLACEMENT_3D('',#413,#351,#352);
#283=DIRECTION('',(0.,0.,1.));
#284=DIRECTION('',(1.,0.,0.));
#285=DIRECTION('',(0.,0.,1.));
#286=DIRECTION('',(1.,0.,0.));
#287=DIRECTION('',(0.,0.,1.));
#288=DIRECTION('',(1.,0.,0.));
#289=DIRECTION('',(0.,1.,0.));
#290=DIRECTION('',(-1.,0.,0.));
#291=DIRECTION('',(0.,1.,0.));
#292=DIRECTION('',(-1.,0.,0.));
#293=DIRECTION('',(0.,0.,1.));
#294=DIRECTION('',(1.,0.,0.));
#295=DIRECTION('',(0.,0.,-1.));
#296=DIRECTION('',(0.,0.,-1.));
#297=DIRECTION('',(-1.,0.,0.));
#298=DIRECTION('',(0.,1.,0.));
#299=DIRECTION('',(0.,0.,1.));
#300=DIRECTION('',(0.,-1.,0.));
#301=DIRECTION('',(0.,-1.,0.));
#302=DIRECTION('',(-1.,0.,0.));
#303=DIRECTION('',(0.,0.,-1.));
#304=DIRECTION('',(-1.,0.,0.));
#305=DIRECTION('',(0.,1.,0.));
#306=DIRECTION('',(0.,0.,1.));
#307=DIRECTION('',(0.,1.,0.));
#308=DIRECTION('',(0.,0.,1.));
#309=DIRECTION('',(0.,0.,1.));
#310=DIRECTION('',(0.,0.,1.));
#311=DIRECTION('',(0.,-1.,0.));
#312=DIRECTION('',(0.,0.,-1.));
#313=DIRECTION('',(1.,0.,0.));
#314=DIRECTION('',(0.,1.,0.));
#315=DIRECTION('',(1.,0.,0.));
#316=DIRECTION('',(0.,1.,0.));
#317=DIRECTION('',(-1.,0.,0.));
#318=DIRECTION('',(0.,0.,1.));
#319=DIRECTION('',(1.,0.,0.));
#320=DIRECTION('',(0.,1.,0.));
#321=DIRECTION('',(1.,0.,0.));
#322=DIRECTION('',(0.,1.,0.));
#323=DIRECTION('',(-1.,0.,0.));
#324=DIRECTION('',(0.,0.,1.));
#325=DIRECTION('',(-1.,0.,0.));
#326=DIRECTION('',(0.,0.,1.));
#327=DIRECTION('',(-1.,0.,0.));
#328=DIRECTION('',(0.,0.,1.));
#329=DIRECTION('',(0.,0.,-1.));
#330=DIRECTION('',(1.,0.,0.));
#331=DIRECTION('',(0.,0.,1.));
#332=DIRECTION('',(1.,0.,0.));
#333=DIRECTION('',(0.,0.,1.));
#334=DIRECTION('',(1.,0.,0.));
#335=DIRECTION('',(0.,0.,-1.));
#336=DIRECTION('',(1.,0.,0.));
#337=DIRECTION('',(0.,0.,1.));
#338=DIRECTION('',(1.,0.,0.));
#339=DIRECTION('',(0.,0.,1.));
#340=DIRECTION('',(1.,0.,0.));
#341=DIRECTION('',(0.,1.,0.));
#342=DIRECTION('',(0.,0.,1.));
#343=DIRECTION('',(0.,1.,0.));
#344=DIRECTION('',(0.,0.,1.));
#345=DIRECTION('',(0.,1.,0.));
#346=DIRECTION('',(0.,0.,1.));
#347=DIRECTION('',(0.,1.,0.));
#348=DIRECTION('',(0.,0.,1.));
#349=DIRECTION('',(0.,1.,0.));
#350=DIRECTION('',(0.,0.,1.));
#351=DIRECTION('',(0.,1.,0.));
#352=DIRECTION('',(0.,0.,1.));
#353=CARTESIAN_POINT('',(0.,0.,0.));
#354=CARTESIAN_POINT('',(1.25,9.5,7.2));
#355=CARTESIAN_POINT('',(1.5,9.5,7.2));
#356=CARTESIAN_POINT('',(1.25,8.5,7.2));
#357=CARTESIAN_POINT('',(1.5,8.5,7.2));
#358=CARTESIAN_POINT('',(0.,0.,7.2));
#359=CARTESIAN_POINT('',(0.,0.,7.2));
#360=CARTESIAN_POINT('',(0.,10.5,7.2));
#361=CARTESIAN_POINT('',(2.5,0.,7.2));
#362=CARTESIAN_POINT('',(2.5,0.,7.2));
#363=CARTESIAN_POINT('',(2.5,0.,7.2));
#364=CARTESIAN_POINT('',(2.5,10.5,7.2));
#365=CARTESIAN_POINT('',(2.5,10.5,7.2));
#366=CARTESIAN_POINT('',(2.5,0.,7.2));
#367=CARTESIAN_POINT('',(0.,10.5,7.2));
#368=CARTESIAN_POINT('',(0.,10.5,0.));
#369=CARTESIAN_POINT('',(2.5,10.5,7.2));
#370=CARTESIAN_POINT('',(2.5,10.5,0.));
#371=CARTESIAN_POINT('',(2.5,10.5,0.));
#372=CARTESIAN_POINT('',(2.5,10.5,7.2));
#373=CARTESIAN_POINT('',(0.,10.5,0.));
#374=CARTESIAN_POINT('',(0.,0.,0.));
#375=CARTESIAN_POINT('',(2.5,10.5,0.));
#376=CARTESIAN_POINT('',(2.5,0.,0.));
#377=CARTESIAN_POINT('',(2.5,0.,0.));
#378=CARTESIAN_POINT('',(2.5,10.5,0.));
#379=CARTESIAN_POINT('',(1.25,0.,1.25));
#380=CARTESIAN_POINT('',(1.25,0.,1.75));
#381=CARTESIAN_POINT('',(1.25,0.,2.5));
#382=CARTESIAN_POINT('',(1.25,0.,3.));
#383=CARTESIAN_POINT('',(0.,0.,0.));
#384=CARTESIAN_POINT('',(2.5,0.,0.));
#385=CARTESIAN_POINT('',(2.5,0.,0.));
#386=CARTESIAN_POINT('',(2.5,6.5,2.5));
#387=CARTESIAN_POINT('',(2.5,7.55,2.5));
#388=CARTESIAN_POINT('',(2.5,2.5,2.5));
#389=CARTESIAN_POINT('',(2.5,3.55,2.5));
#390=CARTESIAN_POINT('',(2.5,0.,0.));
#391=CARTESIAN_POINT('',(0.,6.5,2.5));
#392=CARTESIAN_POINT('',(0.,7.55,2.5));
#393=CARTESIAN_POINT('',(0.,2.5,2.5));
#394=CARTESIAN_POINT('',(0.,3.55,2.5));
#395=CARTESIAN_POINT('',(0.,0.,0.));
#396=CARTESIAN_POINT('',(2.5,2.5,2.5));
#397=CARTESIAN_POINT('',(2.5,6.5,2.5));
#398=CARTESIAN_POINT('',(1.25,8.5,7.15));
#399=CARTESIAN_POINT('',(1.5,8.5,7.15));
#400=CARTESIAN_POINT('',(1.25,8.5,7.15));
#401=CARTESIAN_POINT('',(1.25,8.5,7.15));
#402=CARTESIAN_POINT('',(1.25,9.5,7.15));
#403=CARTESIAN_POINT('',(1.5,9.5,7.15));
#404=CARTESIAN_POINT('',(1.25,9.5,7.15));
#405=CARTESIAN_POINT('',(1.25,9.5,7.15));
#406=CARTESIAN_POINT('',(1.25,-20.,2.5));
#407=CARTESIAN_POINT('',(1.25,-20.,3.));
#408=CARTESIAN_POINT('',(1.25,-20.,2.5));
#409=CARTESIAN_POINT('',(1.25,-20.,2.5));
#410=CARTESIAN_POINT('',(1.25,-20.,1.25));
#411=CARTESIAN_POINT('',(1.25,-20.,1.75));
#412=CARTESIAN_POINT('',(1.25,-20.,1.25));
#413=CARTESIAN_POINT('',(1.25,-20.,1.25));
#414=MECHANICAL_DESIGN_GEOMETRIC_PRESENTATION_REPRESENTATION('',(#24),#415);
#415=(
GEOMETRIC_REPRESENTATION_CONTEXT(3)
GLOBAL_UNCERTAINTY_ASSIGNED_CONTEXT((#416))
GLOBAL_UNIT_ASSIGNED_CONTEXT((#422,#418,#417))
REPRESENTATION_CONTEXT('EX-FD47','TOP_LEVEL_ASSEMBLY_PART')
);
#416=UNCERTAINTY_MEASURE_WITH_UNIT(LENGTH_MEASURE(2.E-5),#422,
'DISTANCE_ACCURACY_VALUE','Maximum Tolerance applied to model');
#417=(
NAMED_UNIT(*)
SI_UNIT($,.STERADIAN.)
SOLID_ANGLE_UNIT()
);
#418=(
CONVERSION_BASED_UNIT('DEGREE',#420)
NAMED_UNIT(#419)
PLANE_ANGLE_UNIT()
);
#419=DIMENSIONAL_EXPONENTS(0.,0.,0.,0.,0.,0.,0.);
#420=PLANE_ANGLE_MEASURE_WITH_UNIT(PLANE_ANGLE_MEASURE(0.0174532925),#421);
#421=(
NAMED_UNIT(*)
PLANE_ANGLE_UNIT()
SI_UNIT($,.RADIAN.)
);
#422=(
LENGTH_UNIT()
NAMED_UNIT(*)
SI_UNIT(.MILLI.,.METRE.)
);
ENDSEC;
END-ISO-10303-21;
